How the Heroine Dies



Moderators: tim, harrymcq, Phrazz, Katie, Cleantone, diesel

How the Heroine Dies

Postby booher » Tue Nov 18, 2014 9:15 am

Saw someone request this on reddit's /r/Tabs sub and someone responded with the intro, so I thought I'd pass it along.

Code: Select all
Intro
e|-------------10----------11---------------------------------------------------------|
B|-------------------10----------------11-----------8---------11----------10----------|
G|---------10-----------------------------------8-------------------------------------|
D|----8----------10---------------12-------8--------------12----------10--------------|
A|---------------------------10-----------------------10-----------8------------------|
E|------------------------------------------------------------------------------------|

e|---------------------------------------------------------------------------|
B|---------------------------------------------------------------------------|
G|-----------12----10--------------------------------------------------------|
D|---------------------------------------------------------------------------|
A|------13-------------------------------------------------------------------|
E|--11-----------------------------------------------------------------------|
booher

Flood of Joyful Existence Waters
 
Posts: 526
Joined: Tue Oct 04, 2005 8:20 pm
Location: The Ville that always Slumbers

Return to Lyrics & Tabs

Who is online

Users browsing this forum: No registered users and 1 guest