Barr Brothers - Half Crazy



Moderators: tim, harrymcq, Phrazz, Katie, Cleantone, diesel

Barr Brothers - Half Crazy

Postby Big Bob » Wed Mar 09, 2016 8:27 am

I'm going to get to work on this one. Transcribed using (https://www.youtube.com/watch?v=CW7XE7jnynU)

Here's what I have so far.

CGDGBE capo 5


Code: Select all
E|------------------------|------------------------|
B|------------------------|------------------------|
G|--------0---0---0---0---|------------------------|
D|----0-------0---3---0---|0---------------0---3---|
G|0-----------------------|----0---3---5-----------|
C|------------------------|------------------------|

E|----------------1p0-----|------------------------|
B|--------1h3-----0-------|2p1---------------------|
G|--------0---------------|0-----------------------|
D|----0-------0-----------|----------------0---3---|
G|0-------------------0---|----0---3---5-----------|
C|------------------------|------------------------|

E|----------------1---0---|1-----------------------|
B|--------1h3-----0---0---|0-----------------------|
G|--------0---------------|------------------------|
D|----0-------0-----------|----------------0---3---|
G|0-----------------------|----0---3---5-----------|
C|------------------------|------------------------|

E|------------------------|------------------------|
B|--------2p1-----2p1-----|------------------------|
G|--------0---------------|3-----------------------|
D|----0-------------------|0---------------0---3---|
G|0-----------0-------0---|----0---3---5-----------|
C|------------------------|------------------------|
Big Bob

User avatar
From the Gecko
 
Posts: 415
Joined: Thu Jan 20, 2005 11:41 am
Location: Western Mass

Return to Lyrics & Tabs

Who is online

Users browsing this forum: No registered users and 1 guest